0
SECTION
2
HEADER
9
$INSUNITS
70
4
0
ENDSEC
0
SECTION
2
TABLES
0
TABLE
2
LTYPE
0
LTYPE
72
65
70
64
2
CONTINUOUS
3
______
73
0
40
0
0
ENDTAB
0
TABLE
2
LAYER
0
ENDTAB
0
ENDSEC
0
SECTION
2
ENTITIES
0
LINE
8
0
10
-10
20
-10
11
10
21
-10
0
LINE
8
0
10
10
20
-10
11
10
21
9
0
LINE
8
0
10
-10
20
9
11
-10
21
-10
0
LINE
8
0
10
10
20
29
11
20
21
29
0
LINE
8
0
10
20
20
9
11
10
21
9
0
LINE
8
0
10
-10
20
9
11
-20
21
9
0
LINE
8
0
10
-20
20
9
11
-20
21
29
0
LINE
8
0
10
-20
20
29
11
-10
21
29
0
LINE
8
0
10
10
20
29
11
10
21
40.6666667
0
LINE
8
0
10
-10
20
29
11
-10
21
40.6666667
0
LINE
8
0
10
-14.75
20
86
11
44.75
21
86
0
LINE
8
0
10
10
20
40.6666667
11
20
21
40.6666667
0
LINE
8
0
10
-10
20
40.6666667
11
-14.75
21
40.6666667
0
LINE
8
0
10
-14.75
20
40.6666667
11
-14.75
21
86
0
LINE
8
0
10
20
20
-10
11
40
21
-10
0
LINE
8
0
10
40
20
-10
11
40
21
9
0
LINE
8
0
10
20
20
9
11
20
21
-10
0
LINE
8
0
10
40
20
29
11
50
21
29
0
LINE
8
0
10
50
20
9
11
50
21
29
0
LINE
8
0
10
50
20
9
11
40
21
9
0
LINE
8
0
10
40
20
29
11
40
21
40.6666667
0
LINE
8
0
10
20
20
29
11
20
21
40.6666667
0
LINE
8
0
10
44.75
20
40.6666667
11
44.75
21
86
0
LINE
8
0
10
44.75
20
40.6666667
11
40
21
40.6666667
0
ENDSEC
0
EOF