0
SECTION
2
HEADER
9
$INSUNITS
70
4
0
ENDSEC
0
SECTION
2
TABLES
0
TABLE
2
LTYPE
0
LTYPE
72
65
70
64
2
CONTINUOUS
3
______
73
0
40
0
0
ENDTAB
0
TABLE
2
LAYER
0
ENDTAB
0
ENDSEC
0
SECTION
2
ENTITIES
0
LINE
8
0
10
-10
20
-10
11
8.8196601
21
-10
0
LINE
8
0
10
8.8196601
20
10
11
-5
21
10
0
LINE
8
0
10
-10
20
5
11
-10
21
-10
0
LINE
8
0
10
31.1803399
20
-10
11
50
21
-10
0
LINE
8
0
10
50
20
-10
11
50
21
5
0
LINE
8
0
10
45
20
10
11
31.1803399
21
10
0
ARC
8
0
10
20
20
0
40
15
50
221.8103149
51
318.1896851
0
ARC
8
0
10
20
20
0
40
15
50
401.8103149
51
498.1896851
0
ARC
8
0
10
-10
20
10
40
5
50
0
51
270
0
ARC
8
0
10
50
20
10
40
5
50
270
51
540
0
ENDSEC
0
EOF