0
SECTION
2
HEADER
9
$INSUNITS
70
4
0
ENDSEC
0
SECTION
2
TABLES
0
TABLE
2
LTYPE
0
LTYPE
72
65
70
64
2
CONTINUOUS
3
______
73
0
40
0
0
ENDTAB
0
TABLE
2
LAYER
0
ENDTAB
0
ENDSEC
0
SECTION
2
ENTITIES
0
LINE
8
0
10
-17
20
-17
11
17
21
-17
0
LINE
8
0
10
17
20
-17
11
17
21
17
0
LINE
8
0
10
-17
20
17
11
17
21
17
0
LINE
8
0
10
-17
20
-17
11
-17
21
17
0
LINE
8
0
10
-10
20
-16
11
10
21
-16
0
ARC
8
0
10
10
20
-10
40
6
50
270
51
360
0
LINE
8
0
10
16
20
-10
11
16
21
10
0
ARC
8
0
10
10
20
10
40
6
50
0
51
90
0
LINE
8
0
10
10
20
16
11
-10
21
16
0
ARC
8
0
10
-10
20
10
40
6
50
90
51
180
0
LINE
8
0
10
-16
20
10
11
-16
21
-10
0
ARC
8
0
10
-10
20
-10
40
6
50
180
51
270
0
LINE
8
0
10
-12.0710678
20
-15
11
12.0710678
21
-15
0
LINE
8
0
10
12.0710678
20
-15
11
15
21
-12.0710678
0
LINE
8
0
10
15
20
-12.0710678
11
15
21
12.0710678
0
LINE
8
0
10
12.0710678
20
15
11
15
21
12.0710678
0
LINE
8
0
10
-12.0710678
20
15
11
12.0710678
21
15
0
LINE
8
0
10
-15
20
12.0710678
11
-12.0710678
21
15
0
LINE
8
0
10
-15
20
-12.0710678
11
-15
21
12.0710678
0
LINE
8
0
10
-15
20
-12.0710678
11
-12.0710678
21
-15
0
LINE
8
0
10
-10
20
-10
11
10
21
-10
0
LINE
8
0
10
10
20
-10
11
10
21
10
0
LINE
8
0
10
10
20
10
11
-10
21
10
0
LINE
8
0
10
-10
20
10
11
-10
21
-10
0
ENDSEC
0
EOF