0
SECTION
2
HEADER
9
$INSUNITS
70
4
0
ENDSEC
0
SECTION
2
TABLES
0
TABLE
2
LTYPE
0
LTYPE
72
65
70
64
2
CONTINUOUS
3
______
73
0
40
0
0
ENDTAB
0
TABLE
2
LAYER
0
ENDTAB
0
ENDSEC
0
SECTION
2
ENTITIES
0
LINE
8
0
10
-9
20
9
11
9
21
9
0
LINE
8
0
10
9
20
9
11
9
21
-9
0
LINE
8
0
10
9
20
-9
11
-9
21
-9
0
LINE
8
0
10
-9
20
-9
11
-9
21
9
0
LINE
8
0
10
-9
20
28
11
9
21
28
0
LINE
8
0
10
9
20
28
11
9
21
10
0
LINE
8
0
10
9
20
10
11
-9
21
10
0
LINE
8
0
10
-9
20
10
11
-9
21
28
0
LINE
8
0
10
-9
20
47
11
9
21
47
0
LINE
8
0
10
9
20
47
11
9
21
29
0
LINE
8
0
10
9
20
29
11
-9
21
29
0
LINE
8
0
10
-9
20
29
11
-9
21
47
0
LINE
8
0
10
10
20
9
11
28
21
9
0
LINE
8
0
10
28
20
9
11
28
21
-9
0
LINE
8
0
10
28
20
-9
11
10
21
-9
0
LINE
8
0
10
10
20
-9
11
10
21
9
0
LINE
8
0
10
-31.7279221
20
19
11
-19
21
31.7279221
0
LINE
8
0
10
-19
20
31.7279221
11
-6.2720779
21
19
0
LINE
8
0
10
-6.2720779
20
19
11
-19
21
6.2720779
0
LINE
8
0
10
-19
20
6.2720779
11
-31.7279221
21
19
0
LINE
8
0
10
10
20
47
11
28
21
47
0
LINE
8
0
10
28
20
47
11
28
21
29
0
LINE
8
0
10
28
20
29
11
10
21
29
0
LINE
8
0
10
10
20
29
11
10
21
47
0
LINE
8
0
10
36.5688034
20
13.9315046
11
54.500308
21
12.3627012
0
LINE
8
0
10
54.500308
20
12.3627012
11
52.9315046
21
-5.5688034
0
LINE
8
0
10
52.9315046
20
-5.5688034
11
35
21
-4
0
LINE
8
0
10
35
20
-4
11
36.5688034
21
13.9315046
0
LINE
8
0
10
48.1867095
20
31.9876465
11
66.1182141
21
30.4188431
0
LINE
8
0
10
66.1182141
20
30.4188431
11
64.5494107
21
12.4873385
0
LINE
8
0
10
64.5494107
20
12.4873385
11
46.6179061
21
14.0561419
0
LINE
8
0
10
46.6179061
20
14.0561419
11
48.1867095
21
31.9876465
0
LINE
8
0
10
49.8426686
20
50.9153458
11
67.7741732
21
49.3465424
0
LINE
8
0
10
67.7741732
20
49.3465424
11
66.2053698
21
31.4150378
0
LINE
8
0
10
66.2053698
20
31.4150378
11
48.2738652
21
32.9838412
0
LINE
8
0
10
48.2738652
20
32.9838412
11
49.8426686
21
50.9153458
0
ENDSEC
0
EOF