0
SECTION
2
HEADER
9
$INSUNITS
70
4
0
ENDSEC
0
SECTION
2
TABLES
0
TABLE
2
LTYPE
0
LTYPE
72
65
70
64
2
CONTINUOUS
3
______
73
0
40
0
0
ENDTAB
0
TABLE
2
LAYER
0
ENDTAB
0
ENDSEC
0
SECTION
2
ENTITIES
0
LINE
8
0
10
-12.7279221
20
0
11
0
21
12.7279221
0
LINE
8
0
10
0
20
12.7279221
11
12.7279221
21
0
0
LINE
8
0
10
12.7279221
20
0
11
0
21
-12.7279221
0
LINE
8
0
10
0
20
-12.7279221
11
-12.7279221
21
0
0
LINE
8
0
10
-26.1629509
20
13.4350288
11
-13.4350288
21
26.1629509
0
LINE
8
0
10
-13.4350288
20
26.1629509
11
-0.7071067
21
13.4350288
0
LINE
8
0
10
-0.7071067
20
13.4350288
11
-13.4350288
21
0.7071067
0
LINE
8
0
10
-13.4350288
20
0.7071067
11
-26.1629509
21
13.4350288
0
LINE
8
0
10
7.2175144
20
25.2175144
11
25.2175144
21
25.2175144
0
LINE
8
0
10
25.2175144
20
25.2175144
11
25.2175144
21
7.2175144
0
LINE
8
0
10
25.2175144
20
7.2175144
11
7.2175144
21
7.2175144
0
LINE
8
0
10
7.2175144
20
7.2175144
11
7.2175144
21
25.2175144
0
LINE
8
0
10
16.2175144
20
51.8804653
11
28.9454365
21
39.1525432
0
LINE
8
0
10
28.9454365
20
39.1525432
11
16.2175144
21
26.4246211
0
LINE
8
0
10
16.2175144
20
26.4246211
11
3.4895923
21
39.1525432
0
LINE
8
0
10
3.4895923
20
39.1525432
11
16.2175144
21
51.8804653
0
ENDSEC
0
EOF