0
SECTION
2
HEADER
9
$INSUNITS
70
4
0
ENDSEC
0
SECTION
2
TABLES
0
TABLE
2
LTYPE
0
LTYPE
72
65
70
64
2
CONTINUOUS
3
______
73
0
40
0
0
ENDTAB
0
TABLE
2
LAYER
0
ENDTAB
0
ENDSEC
0
SECTION
2
ENTITIES
0
LINE
8
0
10
-8.1330139
20
-6.3327787
11
6.9697221
21
-9.81952
0
LINE
8
0
10
-9.2571424
20
-4.5337969
11
2.2153614
21
45.1590764
0
LINE
8
0
10
4.0143432
20
46.2832049
11
24.1880837
21
41.6257299
0
LINE
8
0
10
29.405138
20
48.0440922
11
47.198955
21
41.9171897
0
LINE
8
0
10
27.4985079
20
47.1141667
11
25.9437882
21
42.5989327
0
LINE
8
0
10
62.9528349
20
34.4032989
11
64.0766547
21
37.1848504
0
LINE
8
0
10
63.2477888
20
39.1375361
11
51.1943987
21
44.0074218
0
LINE
8
0
10
49.241713
20
43.1785559
11
49.0780831
21
42.7735577
0
LINE
8
0
10
79.0709017
20
23.5770382
11
79.4455083
21
24.504222
0
LINE
8
0
10
63.7817008
20
32.4506132
11
78.6166424
21
26.4569077
0
LINE
8
0
10
79.8997676
20
21.6243525
11
98.200099
21
14.2305386
0
LINE
8
0
10
44.2533242
20
-43.2458532
11
61.8087843
21
-50.3387195
0
LINE
8
0
10
44.2533242
20
-43.2458532
11
44.2681919
21
-43.2090544
0
LINE
8
0
10
62.1495969
20
-50.531542
11
78.0171651
21
-62.4886123
0
LINE
8
0
10
78.2964587
20
-62.7630734
11
89.5030824
21
-77.1068978
0
LINE
8
0
10
214.4526007
20
-9.81952
11
229.5553367
21
-6.3327787
0
LINE
8
0
10
219.2069614
20
45.1590764
11
230.6794652
21
-4.5337969
0
LINE
8
0
10
197.2342391
20
41.6257299
11
217.4079796
21
46.2832049
0
LINE
8
0
10
195.4785346
20
42.5989327
11
193.9238149
21
47.1141667
0
LINE
8
0
10
174.2233678
20
41.9171897
11
192.0171848
21
48.0440922
0
LINE
8
0
10
172.3442397
20
42.7735577
11
172.1806098
21
43.1785559
0
LINE
8
0
10
170.2279241
20
44.0074218
11
158.174534
21
39.1375361
0
LINE
8
0
10
157.3456681
20
37.1848504
11
158.4694879
21
34.4032989
0
LINE
8
0
10
142.8056804
20
26.4569077
11
157.640622
21
32.4506132
0
LINE
8
0
10
141.9768145
20
24.504222
11
142.3514211
21
23.5770382
0
LINE
8
0
10
123.2222238
20
14.2305386
11
141.5225552
21
21.6243525
0
LINE
8
0
10
159.6135385
20
-50.3387195
11
177.1689986
21
-43.2458532
0
LINE
8
0
10
177.1541309
20
-43.2090544
11
177.1689986
21
-43.2458532
0
LINE
8
0
10
143.4051577
20
-62.4886123
11
159.2727259
21
-50.531542
0
LINE
8
0
10
131.9192404
20
-77.1068978
11
143.1258641
21
-62.7630734
0
LINE
8
0
10
98.200099
20
14.2305386
11
98.3240259
21
14.2305386
0
LINE
8
0
10
123.0982969
20
14.2305386
11
123.2222238
21
14.2305386
0
LINE
8
0
10
130.7372243
20
-77.6834056
11
128.0592469
21
-77.6834056
0
LINE
8
0
10
93.3630759
20
-77.6834056
11
90.6850985
21
-77.6834056
0
ARC
8
0
10
110.7111614
20
-103.666017
40
31
50
57.7382972
51
122.2617028
0
ARC
8
0
10
110.7111614
20
42.648119
40
31
50
246.4477616
51
293.5522384
0
LINE
8
0
10
6.9697221
20
-9.81952
11
7.1515725
21
-9.9825566
0
LINE
8
0
10
214.4526007
20
-9.81952
11
214.2707503
21
-9.9825566
0
ARC
8
0
10
-17.2087557
20
-74.53931
40
69
50
387.004577
51
429.3261275
0
ARC
8
0
10
238.6310785
20
-74.53931
40
69
50
110.6738725
51
152.995423
0
LINE
8
0
10
94.8111614
20
-41.351881
11
126.6111614
21
-41.351881
0
LINE
8
0
10
128.1111614
20
-39.851881
11
128.1111614
21
-28.351881
0
LINE
8
0
10
126.6111614
20
-26.851881
11
94.8111614
21
-26.851881
0
LINE
8
0
10
93.3111614
20
-28.351881
11
93.3111614
21
-39.851881
0
ARC
8
0
10
61.2468744
20
-51.7294953
40
1.5
50
53.0000007
51
68.0000006
0
ARC
8
0
10
77.1144426
20
-63.6865656
40
1.5
50
37.9999995
51
53.0000007
0
ARC
8
0
10
90.6850985
20
-76.1834056
40
1.5
50
217.9999995
51
270
0
ARC
8
0
10
93.3630759
20
-76.1834056
40
1.5
50
270
51
302.2617028
0
ARC
8
0
10
128.0592469
20
-76.1834056
40
1.5
50
237.7382972
51
270
0
ARC
8
0
10
130.7372243
20
-76.1834056
40
1.5
50
270
51
322.0000005
0
ARC
8
0
10
144.3078802
20
-63.6865656
40
1.5
50
126.9999993
51
142.0000005
0
ARC
8
0
10
160.1754484
20
-51.7294953
40
1.5
50
111.9999994
51
126.9999993
0
ARC
8
0
10
229.2179101
20
-4.8712236
40
1.5
50
283.0000021
51
13.0000021
0
ARC
8
0
10
217.7454063
20
44.8216498
40
1.5
50
13.0000021
51
103.0000021
0
ARC
8
0
10
196.8968125
20
43.087285
40
1.5
50
199.000002
51
283.0000021
0
ARC
8
0
10
192.505537
20
46.6258144
40
1.5
50
19.000002
51
109.000002
0
ARC
8
0
10
173.7350155
20
43.3354676
40
1.5
50
201.9999994
51
289.000002
0
ARC
8
0
10
170.789834
20
42.616646
40
1.5
50
21.9999994
51
111.9999994
0
ARC
8
0
10
158.7364439
20
37.7467603
40
1.5
50
111.9999994
51
201.9999994
0
ARC
8
0
10
157.0787121
20
33.841389
40
1.5
50
291.9999994
51
21.9999994
0
ARC
8
0
10
143.3675903
20
25.0661319
40
1.5
50
111.9999994
51
201.9999994
0
ARC
8
0
10
140.9606453
20
23.0151283
40
1.5
50
291.9999994
51
21.9999994
0
ARC
8
0
10
80.4616775
20
23.0151283
40
1.5
50
158.0000006
51
248.0000006
0
ARC
8
0
10
78.0547325
20
25.0661319
40
1.5
50
338.0000006
51
68.0000006
0
ARC
8
0
10
64.3436107
20
33.841389
40
1.5
50
158.0000006
51
248.0000006
0
ARC
8
0
10
62.6858789
20
37.7467603
40
1.5
50
338.0000006
51
68.0000006
0
ARC
8
0
10
50.6324888
20
42.616646
40
1.5
50
68.0000006
51
158.0000006
0
ARC
8
0
10
47.6873073
20
43.3354676
40
1.5
50
250.999998
51
338.0000006
0
ARC
8
0
10
28.9167858
20
46.6258144
40
1.5
50
70.999998
51
160.999998
0
ARC
8
0
10
24.5255103
20
43.087285
40
1.5
50
256.9999979
51
340.999998
0
ARC
8
0
10
3.6769165
20
44.8216498
40
1.5
50
76.9999979
51
166.9999979
0
ARC
8
0
10
-7.7955873
20
-4.8712236
40
1.5
50
166.9999979
51
256.9999979
0
ARC
8
0
10
126.6111614
20
-39.851881
40
1.5
50
270
51
0
0
ARC
8
0
10
126.6111614
20
-28.351881
40
1.5
50
0
51
90
0
ARC
8
0
10
94.8111614
20
-28.351881
40
1.5
50
90
51
180
0
ARC
8
0
10
94.8111614
20
-39.851881
40
1.5
50
180
51
270
0
CIRCLE
8
0
10
128.0860053
20
-11.817526
40
1.5
0
CIRCLE
8
0
10
93.3363175
20
-11.817526
40
1.5
0
CIRCLE
8
0
10
94.7227243
20
-45.7682474
40
1.5
0
CIRCLE
8
0
10
126.6995985
20
-45.7682474
40
1.5
0
CIRCLE
8
0
10
88.7111614
20
-35.5848675
40
1.5
0
CIRCLE
8
0
10
132.7111614
20
-35.5848675
40
1.5
0
ENDSEC
0
EOF